Make your own free website on Tripod.com

Escalas Gregas

 

 

Todas as escalas a baixo estão em Lá e para mudar 
basta transportar as casa para a nota desejada.


Modo Jônico 
e|-------------------------------5-7-9-------| 
B|-------------------------5-7-9-------------| 
G|-------------------6-7-9-------------------| 
D|-------------6-7-9-------------------------| 
A|-------5-7-9-------------------------------| 
E|-5-7-9-------------------------------------| 


Modo Dórico 
e|-------------------------------5-7-8-------| 
B|-------------------------5-7-8-------------| 
G|-------------------5-7-9-------------------| 
D|-------------5-7-9-------------------------| 
A|-------5-7-9-------------------------------| 
E|-5-7-8-------------------------------------| 



Modo Frígio 
e|-------------------------------5-6-8-------| 
B|-------------------------5-6-8-------------| 
G|-------------------5-7-9-------------------| 
D|-------------5-7-8-------------------------| 
A|-------5-7-8-------------------------------| 
E|-5-6-8-------------------------------------| 



Modo Lídio 
e|-------------------------------5-7-9-------| 
B|-------------------------5-7-9-------------| 
G|-------------------6-8-9-------------------| 
D|-------------6-7-9-------------------------| 
A|-------6-7-9-------------------------------| 
E|-5-7-9-------------------------------------| 



Modo Mixolídio 
e|---------------------------------5-7-9-----| 
B|---------------------------5-7-9-----------| 
G|-------------------6-7-8-9-----------------| 
D|-------------5-7-9-------------------------| 
A|-------5-7-9-------------------------------| 
E|-5-7-9-------------------------------------| 



Modo Eólio 
e|---------------------------------5-7-8-----| 
B|-------------------------5-6-7-8-----------| 
G|-------------------5-7-9-------------------| 
D|-------------5-7-9-------------------------| 
A|-------5-7-8-------------------------------| 
E|-5-7-8-------------------------------------| 



Modo Lócrio 
e|---------------------------------5-6-8-----| 
B|-------------------------4-5-6-8-----------| 
G|-------------------5-7-8-------------------| 
D|-------------5-7-8-------------------------| 
A|-------5-6-8-------------------------------| 
E|-5-6-8-------------------------------------|