Make your own free website on Tripod.com

Tapping

 

 

Também chamada de two hands, o tapping ainda não é muito utilizado, mas todos o conhecem. Exatamente por ser um território não avançado por muitos guitarristas, frases, licks e riffs aparecem a todo momento sem aquela impressão de "já ouvi isso antes". O maior perigo é em sujar o som já que você tira a mão das cordas desabafando-as. Para velocistas, uma beleza, para quem quer o feeling também, pois novas alternativas aparecem com o uso das duas mãos. É interessante também treinar escorregar a palheta com o dedão assim podendo utilizar o dedo 1 também no tapping.
Chega de blá, blá, blá e vamos começar com os exercícios. 

Ex:1 Eu iria colocar "One", do Metallica, mas já tá muito manjado, então começaremos até de algo mais simples um exercício aparentemente bobo, mas eficiente.
Tom: Am


       T            T           T            T           T           T
E |-(12-8p5)-(10-8p5)-(12-8p5)-(10-8p5)-(13-8p5)-(15-8p5)---|
B |----4x-------2x-------4x-------2x-------4x-------4x------|
G |---------------------------------------------------------|
D |---------------------------------------------------------|
A |---------------------------------------------------------|
E |---------------------------------------------------------|


O melhor é treinar com o dedo 2(do meio) para que você possa segurar a palheta normalmente e ganhar tempo na hora de voltar. O dedo 3 também é interessante.

Ex:2 Esse é o começo do solo de "Wasted years", do Iron Maiden, sendo até mais fácil que o exercício 1, mas a diferença é o aparecimento do zero no tapping o que não muda nada.Só é um pouco rápido. 
Tom: Em


       T            T            T            T
E |---------------------------------------------------|
B |-12-0h5h8-12-0h5h8-12-0h5h8-12-0h5h8-8-7-5-5-7-5---|
G |------------------------------------------7--------|
D |---------------------------------------------------|
A |---------------------------------------------------|
E |---------------------------------------------------|



Ex:3 Esse é o começo do solo de "Victim of fate" do Helloween e é bastante rápido, um pouco sujo e bem interessante.
Tom: Am


      T             T            T            T            T            T
E |-12-0h5h8-12-0h5h8-12-0h5h8-12-0h5h8-13-0h5h8-13-0h5h8---|
B |-\---------------------------------------------------/---|
G |------------------------2x-------------------------------|
D |---------------------------------------------------------|
A |---------------------------------------------------------|
E |---------------------------------------------------------|

E |-15-0h7h10-15-0h7h10-15-0h7h10-15-0h7h10-17-0h7h10-17-0h7h10---|
B |---------------------------------------------------------------|
G |---------------------------------------------------------------|
D |---------------------------------------------------------------|
A |---------------------------------------------------------------|
E |---------------------------------------------------------------|



Ex:4 Agora, vamos as escalas. Em G maior. Também deve-se fazer com o inverso da escala. Perceba que o tapping é sempre na última nota de cada corda; atenção para não sair um som sujo. É óbvio que as notas da mão esquerda(se você for destro) devem ser ligadas(hammer-on).


            T     T    T    T    T    T
E |---------------------------5-7-8---|
B |----------------------5-7-8--------|
G |-----------------4-5-7-------------|
D |------------4-5-7------------------|
A |-------3-5-7-----------------------|
E |--3-5-7----------------------------|


Ex:5 Acrescentando uma nota a escala.


              T        T        T       T        T        T   T         T
E |-----------------------------------------5-7-8-14/15-8p5-15---|
B |---------------------------------5-7-8-13---------------------|
G |-------------------------4-5-7-12-----------------------------|
D |-----------------4-5-7-12-------------------------------------|
A |---------3-5-7-12---------------------------------------------|
E |-3-5-7-12-----------------------------------------------------|



Agora colocarei exemplos mais difíceis que compreendem assuntos já vistos(arpejos,slide, vibrato).


Ex:6 

          T  T      T  T       T T        T T       T  T      T
E |-------------------------------------------------|
B |-------------------------------------------------|
G |-2-12/14-4-14/16-5-16/17-7-17/19-9-17/19-9-19~---|
D |-\-----/-\-----/-\-----/-\-----/-----------------|
A |----4x------4x------4x------4x-------------------|

Ex:7 Usando a escala de blues em Am.


                          T   T          T         T  T           T   T
E |--------------------------------15-8-5-15/17-10-8---------------|
B |-------------------------15-8-5----------------------15/17-10-8-----| 
G |------------5-7-12/14-7-5-----------------------------------9~~-|
D |---------5-7----------------------------------------------------|
A |----5-6-7-------------------------------------------------------|
E |-5-8------------------------------------------------------------|